Re: Journey - The Party Is Over (Live)
Posted by: PaulBonrud ()
Date: December 31, 2012 04:58AM

Here's my quick transcription for the intro and the main riff for those of you who play guitar. :)

Journey - Party's Over - transcribed by Paul

Main Riff

--------------------------------
--------------8-----------------
--7--7-----7--7--7--------------
--9--7--5--7--9--7--7-9-7-5-----
--------------------------------
--------------------------------


Intro lick (pick as fast as you can!!!!!!!!! :)

--------------------------------------------------------------------
--3------------------------3-------3-----------------3--------------
----4-0-5-4-2-4^^^^--2-4-5---5-4-0---5-4-2-4-0-2-4-0---0-5-0-4------
---------------------------------------------------------------5^^^^
--------------------------------------------------------------------
--------------------------------------------------------------------

http://www.bonrud.com
http://facebook.com/bonrud
http://www.youtube.com/bonrudmusic

Navigate: Previous MessageNext Message
Options: ReplyQuote


SubjectViewsWritten ByPosted
Journey - The Party Is Over (Live) 967 MSL 12/29/2012 06:43AM
Re: Journey - The Party Is Over (Live) 441 Captain Can Man 12/29/2012 12:02PM
Re: Journey - The Party Is Over (Live) 405 PaulBonrud 12/29/2012 04:22PM
Re: Journey - The Party Is Over (Live) 348 Captain Can Man 12/29/2012 06:06PM
Re: Journey - The Party Is Over (Live) 305 Kevin 12/30/2012 03:41AM
Re: Journey - The Party Is Over (Live) 297 Captain Can Man 12/30/2012 07:27AM
Re: Journey - The Party Is Over (Live) 236 rocknut 12/30/2012 08:15AM
Re: Journey - The Party Is Over (Live) 270 Ydde 12/30/2012 12:46PM
Re: Journey - The Party Is Over (Live) 258 Captain Can Man 12/30/2012 01:40PM
Re: Journey - The Party Is Over (Live) 179 the ORIGINAL brent 12/31/2012 09:47PM
Re: Journey - The Party Is Over (Live) 116 Captain Can Man 01/01/2013 09:02AM
Re: Journey - The Party Is Over (Live) 342 Figge 12/29/2012 08:39PM
Re: Journey - The Party Is Over (Live) 295 Terry K. 12/30/2012 02:29AM
Re: Journey - The Party Is Over (Live) 265 rocknut 12/30/2012 08:18AM
Re: Journey - The Party Is Over (Live) 170 PaulBonrud 12/31/2012 01:01AM
Re: Journey - The Party Is Over (Live) 163 Terry K. 12/31/2012 01:06AM
Re: Journey - The Party Is Over (Live)174 PaulBonrud 12/31/2012 04:58AM
Re: Journey - The Party Is Over (Live) 159 MSL 12/31/2012 05:19AM
Re: Journey - The Party Is Over (Live) 176 Terry K. 12/31/2012 05:35AM
Re: Journey - The Party Is Over (Live) 145 PaulBonrud 12/31/2012 06:01AM
Re: Journey - The Party Is Over (Live) 143 Captain Can Man 12/31/2012 06:11AM
Re: Journey - The Party Is Over (Live) 161 PaulBonrud 12/31/2012 06:27AM


Sorry, only registered users may post in this forum.
Powered by Phorum.

Disclaimer: melodicrock.com takes no responsibility for the contents of messages posted on this open forum, or for the sanity of those posting.